forum_banner2_enforsaken.jpg

Home | Links | Press | Gallery | Forum | Band | Merch | Discography | Tabs | MySpace | Endorsements | Contact | Video | Bio | Lyrics | Wallpaper | Mailing List | Icons

ENFORSAKEN GUITAR TABS:
 
All tabs are located on this page. Please scroll down to view each tab.
 
Tab menu:
 
1. A Break From Tradition
2. All For Nothing
3. Tales Of Bitterness
4. Poison Me
 
 
Enforsaken
"A Break From Tradition"
From the album "The Forever Endeavor"

Century Media Records/Olympic Recordings
Music by Steve Stell
Lyrics By Steven Sagala

2004 Magic Arts Publishing (ascap)

Tune down to C# standard

Intro
|----------------------------------------------------|
|----------------------------------------------------|
|----------------------------------------------------|
|-------9-----------------------------12-------------|
|--------10-9------7-9-10--10----12-----12--14-12-10-|
|-0-0-0------0-0-0-------8---8/10--10-----10---------|

|----------------------------------------------|
|----------------------------------------------|
|----------------------------------------------|
|-------9--------------------------------------|
|--------10-9-----7-9-10-10-10/12-10-10-10-9---|
|-0-0-0------0-0-0------8--8--------8--8-------|

Next riff
|----------------------------------------------|
|----------------------------------------------|
|----------------------------------------------|
|---------9------------------------------------|
|-7--------12-10-12-10-9-----------1010101010--|
|--0000000--------------10-88888888------------|


|------------------------------------------------------------|
|------------------------------------------------------------|
|------------------------------------------------------------|
|------------------------------------------------------------|
|-12121212121214141414141412121212121010101010999991010101010|
|------------------------------------------------------------|


|----------------------------------------------|
|----------------------------------------------|
|----------------------------------------------|
|---------9------------------------------------|
|-7--------12-10-12-10-9-----------1010101010--|
|--0000000--------------10-88888888------------|


|---------------------------------------------------|
|---------------------------------------------------|
|---------------------------------------------------|
|-12121212121210101010101055555544444440000004444444|
|---------------------------------------------------|
|---------------------------------------------------|

Chorus
|----------------------------------------------|
|----------------------------------------------|
|-9-------9------------------------------------|
|-----------------------ho/po-------ho/po------|
|-7-------7--------/10-9-10-9\5-/10-9-10-9\5---|
|--0-0-0-0-0-0-0-0-----------------------------|


|-----------------(slide and pick accordingly)-|
|----------------------------------------------|
|-9-------9-------9-11-12-14-12-11-------------|
|----------------------------------------------|
|-7-------7-------7-9--10-12-10-9--------------|
|--0-0-0-0-0-0-0-0-----------------------------|

|----------------------------------------------|
|----------------------------------------------|
|-9-------9------------------------------------|
|-----------------------ho/po-------ho/po------|
|-7-------7--------/10-9-10-9\5-/10-9-10-9\5---|
|--0-0-0-0-0-0-0-0-----------------------------|


|----------------------------------------------|
|----------------------------------------------|
|----------------------------------------------|
|-5----4------p/0------------------------------|
|-3----2-----3232------------------------------|
|----------------3-----------------------------|

back to intro riff
|----------------------------------------------------|
|----------------------------------------------------|
|----------------------------------------------------|
|-------9-----------------------------12-------------|
|--------10-9------7-9-10--10----12-----12--14-12-10-|
|-0-0-0------0-0-0-------8---8/10--10-----10---------|

|----------------------------------------------|
|----------------------------------------------|
|----------------------------------------------|
|-------9--------------------------------------|
|--------10-9-----7-9-10-10-10/12-10-10-10-9---|
|-0-0-0------0-0-0------8--8--------8--8-------|

Main verse riff again
|----------------------------------------------|
|----------------------------------------------|
|----------------------------------------------|
|---------9------------------------------------|
|-7--------12-10-12-10-9-----------1010101010--|
|--0000000--------------10-88888888------------|


|------------------------------------------------------------|
|------------------------------------------------------------|
|------------------------------------------------------------|
|------------------------------------------------------------|
|-12121212121214141414141412121212121010101010999991010101010|
|------------------------------------------------------------|


|----------------------------------------------|
|----------------------------------------------|
|----------------------------------------------|
|---------9------------------------------------|
|-7--------12-10-12-10-9-----------1010101010--|
|--0000000--------------10-88888888------------|


|---------------------------------------------------|
|---------------------------------------------------|
|---------------------------------------------------|
|-12121212121210101010101055555544444440000004444444|
|---------------------------------------------------|
|---------------------------------------------------|

Chorus
|----------------------------------------------|
|----------------------------------------------|
|-9-------9------------------------------------|
|-----------------------ho/po-------ho/po------|
|-7-------7--------/10-9-10-9\5-/10-9-10-9\5---|
|--0-0-0-0-0-0-0-0-----------------------------|


|-----------------(slide and pick accordingly)-|
|----------------------------------------------|
|-9-------9-------9-11-12-14-12-11-------------|
|----------------------------------------------|
|-7-------7-------7-9--10-12-10-9--------------|
|--0-0-0-0-0-0-0-0-----------------------------|

|----------------------------------------------|
|----------------------------------------------|
|-9-------9------------------------------------|
|-----------------------ho/po-------ho/po------|
|-7-------7--------/10-9-10-9\5-/10-9-10-9\5---|
|--0-0-0-0-0-0-0-0-----------------------------|


|----------------------------------------------|
|----------------------------------------------|
|----------------------------------------------|
|-5----4------p/0------------------------------|
|-3----2-----3232------------------------------|
|----------------3-----------------------------|


next riff
|----------------------------------------------------|
|----------------------------------------------------|
|----------------------------------------------------|
|-9-----9---9-10-10-10-9-7---------------------------|
|-7---7---7------------------9-----9----9--12-12-12--|
|---------------------------10--10---10--------------|


|----------------------------------------------|
|----------------------------------------------|
|----------------------------------------------|
|----------------------------------------------|
|-10-9--7---7-7-10-10-10-9-7--6----6--6-7-7-7^~|
|-------8--8-8----------------7--7--7----------|

fill
|----------------------------------------------|
|----------------------------------------------|
|-14--12--11-----------------------------------|
|----------------------------------------------|
|-12--10--9------------------------------------|
|----------------------------------------------|



|--------------------------------|
|--------------------------------|
|--------------------------------|
|-55-----77-----99-----99--------|
|-33-333-55-555-77-777-77-777----|
|--------------------------------|


|----------------------------------------|
|----------------------------------------|
|----------------------------------------|
|-55-----77-----99-----99------12--10--9-|
|-33-333-55-555-77-777-77-777----77---7--|
|----------------------------------------|



|--------------------------------|
|--------------------------------|
|--------------------------------|
|-55-----77-----99-----99--------|
|-33-333-55-555-77-777-77-777----|
|--------------------------------|


|----------------------------------|
|----------------------------------|
|----------------------------------|
|-55-----77-----99-----9\-4--------|
|-33-333-55-555-77-777-7\-2--532---|
|-------------------------------32-|



next riff. Clean gtrs. Strum accordingly with these chords

|-0-----0--------------------------|
|-0-----1-----0--------------------|
|-0-----0-----0--------------------|
|-2-----2-----x--------------------|
|-2-----3-----2-----32-------------|
|-0-------------------3------------|


next riff
|-----------h/o-p/o-----------------------|
|----------787--87------------------------|
|-------/7----9---------------------------|
|--------------------7777------5-7/9-7\5--|
|-2222---------------5555---/7-----------7|
|-0000------------------------------------|


|--------------------------------|
|--------------------------------|
|-----765---------h/p------------|
|--------765------454---4--------|
|-3333-------2222----5-5---------|
|---------------------7----------|



Back to Intro
|----------------------------------------------------|
|----------------------------------------------------|
|----------------------------------------------------|
|-------9-----------------------------12-------------|
|--------10-9------7-9-10--10----12-----12--14-12-10-|
|-0-0-0------0-0-0-------8---8/10--10-----10---------|

|----------------------------------------------|
|----------------------------------------------|
|----------------------------------------------|
|-------9--------------------------------------|
|--------10-9-----7-9-10-10-10/12-10-10-10-9---|
|-0-0-0------0-0-0------8--8--------8--8-------|

Next riff
|----------------------------------------------|
|----------------------------------------------|
|----------------------------------------------|
|---------9------------------------------------|
|-7--------12-10-12-10-9-----------1010101010--|
|--0000000--------------10-88888888------------|


|------------------------------------------------------------|
|------------------------------------------------------------|
|------------------------------------------------------------|
|------------------------------------------------------------|
|-12121212121214141414141412121212121010101010999991010101010|
|------------------------------------------------------------|


|----------------------------------------------|
|----------------------------------------------|
|----------------------------------------------|
|---------9------------------------------------|
|-7--------12-10-12-10-9-----------1010101010--|
|--0000000--------------10-88888888------------|


|---------------------------------------------------|
|---------------------------------------------------|
|---------------------------------------------------|
|-12121212121210101010101055555544444440000004444444|
|---------------------------------------------------|
|---------------------------------------------------|

Chorus
|----------------------------------------------|
|----------------------------------------------|
|-9-------9------------------------------------|
|-----------------------ho/po-------ho/po------|
|-7-------7--------/10-9-10-9\5-/10-9-10-9\5---|
|--0-0-0-0-0-0-0-0-----------------------------|


|-----------------(slide and pick accordingly)-|
|----------------------------------------------|
|-9-------9-------9-11-12-14-12-11-------------|
|----------------------------------------------|
|-7-------7-------7-9--10-12-10-9--------------|
|--0-0-0-0-0-0-0-0-----------------------------|

|----------------------------------------------|
|----------------------------------------------|
|-9-------9------------------------------------|
|-----------------------ho/po-------ho/po------|
|-7-------7--------/10-9-10-9\5-/10-9-10-9\5---|
|--0-0-0-0-0-0-0-0-----------------------------|


|----------------------------------------------|
|----------------------------------------------|
|----------------------------------------------|
|-5----4------p/0------------------------------|
|-3----2-----3232------------------------------|
|----------------3-----------------------------|
 
 
 
 
Enforsaken
"All For Nothing"
From the album "The Forever Endeavor"
track 10

Century Media Records 2004
Magic Arts Publishing (ascap)

Words and music by Steve Stell

Tune to C# standard

Intro (heavy palm mute accordingly)                   

|--------------------------------------------|
|--------------------------------------------|
|--------------------------------------------|
|-0000-2-000-3-000-2235----------------77----|
|----------------------1111-3-111-5-111--55--|
|--------------------------------------------|



|--------------------------------------------|
|--------------------------------------------|
|--------------------------------------------|
|---------------------------------55773322---|
|-000000-1-00000-1-000000-1-000000-----------|
|--------------------------------------------|



|--------------------------------------------|
|--------------------------------------------|
|--------------------------------------------|
|-0000-2-000-3-000-2235----------------77----|
|----------------------1111-3-111-5-111--55--|
|--------------------------------------------|




|--------------------------------------------|
|--------------------------------------------|
|--------------------------------------------|
|---------------------------------77553322---|
|-000000-1-00000-1-000000-1-000000-----------|
|--------------------------------------------|




|---------------------------------------------------------|
|---------------------------------------------------------|
|---------------------------------------------------------|
|--------------3322----------------------5544557788775544-|
|------------------332255332233---------------------------|
|-111111111111-----------------3333333333-----------------|


       
|------------------------------------------------------------|
|------------------------------------------------------------|
|------------------------------------------------------------|
|-5544557788775544--5544557788775544--8877881010111110108877-|
|------------------------------------------------------------|
|------------------------------------------------------------|


MAIN VERSE RIFF


|-------------------------------------------------------------|
|-------------------------------------------------------------|
|-------------------------------------------------------------|
|-----------hopo------------------------hopo------------------|
|-7\5---7\-/7575----3-----5---7\5---7\-/7575------------hopo--|
|-5\3-0-5\------8-1--1/3-3-3--5\3-0-5\------8-/10-8-7-8-787\3-|



|------------------------------------------------------------------|
|------------------------------------------------------------------|
|---------------------------------------------9\-7\-5/-7\-5--------|
|-----------hopo------------------------hopo----------------hopo---|
|-7\5---7\-/7575----3-----5---7\5---7\-/7575--7\-5\-3/-5\-3--232---|
|-5\3-0-5\------8-1--1/3-3-3--5\3-0-5\------8-------------------3--|




PRE CHORUS RIFF

|----------------------------------------------|
|-----------------------------------let ring---|
|----------------------------------------------|
|-------------------h/p---------------777------|
|-7-7-------7-7-5-7-575--5-5---------5---5-----|
|-5-5-555555-5---------8-3-3-333333-3-----3----|


|----------------------------------------------|
|-----------------------------------let ring---|
|----------------------------------------------|
|-------------------h/p---------------777------|
|-7-7-------7-7-5-7-575--5-5---------5---5-----|
|-5-5-555555-5---------8-3-3-333333-3-----3----|

|----------------------------|
|----let ring----------------|
|----------------------------|
|------5-------------5\4-----|
|-3-3----3-----5-5---3\2-----|
|-1-1------1---3-3--3---3----|



CHORUS

strum the chords freely and accordingly

|--------------------------------|
|--------------------------------|
|--------------------------------|
|-7-9-10-9-5-7-5-7-9-10-9-10--12-|
|-7-7-7--7-5-5-5-7-7-7--7-10--12-|
|-5-5-5--5-3-3-3-5-5-5--5-8---10-|




back to main verse riff

|-------------------------------------------------------------|
|-------------------------------------------------------------|
|-------------------------------------------------------------|
|-----------hopo------------------------hopo------------------|
|-7\5---7\-/7575----3-----5---7\5---7\-/7575------------hopo--|
|-5\3-0-5\------8-1--1/3-3-3--5\3-0-5\------8-/10-8-7-8-787\3-|



|------------------------------------------------------------------|
|------------------------------------------------------------------|
|---------------------------------------------9\-7\-5/-7\-5--------|
|-----------hopo------------------------hopo----------------hopo---|
|-7\5---7\-/7575----3-----5---7\5---7\-/7575--7\-5\-3/-5\-3--232---|
|-5\3-0-5\------8-1--1/3-3-3--5\3-0-5\------8-------------------3--|




pre chorus riff

|----------------------------------------------|
|-----------------------------------let ring---|
|----------------------------------------------|
|-------------------h/p---------------777------|
|-7-7-------7-7-5-7-575--5-5---------5---5-----|
|-5-5-555555-5---------8-3-3-333333-3-----3----|


|----------------------------------------------|
|-----------------------------------let ring---|
|----------------------------------------------|
|-------------------h/p---------------777------|
|-7-7-------7-7-5-7-575--5-5---------5---5-----|
|-5-5-555555-5---------8-3-3-333333-3-----3----|

|----------------------------|
|----let ring----------------|
|----------------------------|
|------5-------------5\4-----|
|-3-3----3-----5-5---3\2-----|
|-1-1------1---3-3--3---3----|



chorus riff

strum freely these chords
|--------------------------------|
|--------------------------------|
|--------------------------------|
|-7-9-10-9-5-7-5-7-9-10-9-10--12-|
|-7-7-7--7-5-5-5-7-7-7--7-10--12-|
|-5-5-5--5-3-3-3-5-5-5--5-8---10-|



NEXT RIFF. Heavy palm mute accordingly

|-------------------------------------------------------------------|
|-------------------------------------------------------------------|
|------------------------hopo---------------------------------------|
|-------9---7\-------10-9-10-9-----------------9---7\---------------|
|-----7--7--8\-----7-----------10------------7--7--8\----7---7------|
|-55555---5----55555--------------12-10--55555---5-----555-555-5555-|


NEXT RIFF SECTION
|--------------------------------------------|
|--------------------------------------------|
|---------5\4---9-~--5-------------HOPO------|
|---------7\5---10~--7-----------5-353-------|
|-7----------00--------000000-357-----753----|
|-5-555555--------------------H/O------------|


|------------------------------------------------|
|------------------------------------------------|
|-5--------5\4---9-~-----------------------------|
|-7--------7\5---10~--7--7--10-9-7--6--6--6-7-9--|
|-0-000000----00------8-8-8---------7-7-7--------|
|------------------------------------------------|




Slow melodic middle section before James Murphy lead guitar. 2 guitars.

|---------------------------------------------------------------|
|---------------------------------------------------------------|
|---------------------------------------------------------------|
|------------h/p------------------------------------------------|
|-----h/0--7-575--------h/o--5-353-------h/o--3-2---3-5-3-232---|
|-5--5-7-8-------8--3--3-5-7------7--1--1-3-5----------------3--|




James Murphy solo




back to main riff:

|-------------------------------------------------------------|
|-------------------------------------------------------------|
|-------------------------------------------------------------|
|-----------hopo------------------------hopo------------------|
|-7\5---7\-/7575----3-----5---7\5---7\-/7575------------hopo--|
|-5\3-0-5\------8-1--1/3-3-3--5\3-0-5\------8-/10-8-7-8-787\3-|



|------------------------------------------------------------------|
|------------------------------------------------------------------|
|---------------------------------------------9\-7\-5/-7\-5--------|
|-----------hopo------------------------hopo----------------hopo---|
|-7\5---7\-/7575----3-----5---7\5---7\-/7575--7\-5\-3/-5\-3--232---|
|-5\3-0-5\------8-1--1/3-3-3--5\3-0-5\------8-------------------3--|




pre chorus riff

|----------------------------------------------|
|-----------------------------------let ring---|
|----------------------------------------------|
|-------------------h/p---------------777------|
|-7-7-------7-7-5-7-575--5-5---------5---5-----|
|-5-5-555555-5---------8-3-3-333333-3-----3----|


|----------------------------------------------|
|-----------------------------------let ring---|
|----------------------------------------------|
|-------------------h/p---------------777------|
|-7-7-------7-7-5-7-575--5-5---------5---5-----|
|-5-5-555555-5---------8-3-3-333333-3-----3----|

|----------------------------|
|----let ring----------------|
|----------------------------|
|------5-------------5\4-----|
|-3-3----3-----5-5---3\2-----|
|-1-1------1---3-3--3---3----|



chorus riff

strum freely and accordingly
|--------------------------------|
|--------------------------------|
|--------------------------------|
|-7-9-10-9-5-7-5-7-9-10-9-10--12-|
|-7-7-7--7-5-5-5-7-7-7--7-10--12-|
|-5-5-5--5-3-3-3-5-5-5--5-8---10-|

 
 
Enforsaken
"Tales of bitterness"

From the album "The Forever Endeavor"
track 1

Century Media Records/Olympic Recordings
Music by Steve Stell and Joe DeGroot
Lyrics By Steven Sagala

2004 Magic Arts Publishing (ascap)

Tune to C# standard

Intro                     
|----------------------------------------------|
|----------------------------------------------|
|----------------------------------------------|
|----------------------------------------------|
|-3-3------6-6------3-3------6-6---------------|
|-1-1-1111-4-4-4444-1-1-1111-4-4-4444----------|



Main riff
|----------------------------------------------------|
|--------------------0-------------------------------|
|-5-----10--9------5---5--5-----10--9-------9/10-10~-|
|-7-----12-10----7--------7-----12-10------10/12-12~-|
|-0-000---0--0000---------0-000---0---0000-----------|
|----------------------------------------------------|


|-----------------------------------------------------------------------|
|-----------------------------------------------------------------------|
|-5-----10--9-----------------------------------------------(ho\po)-----|
|-7-----12-10-----1010997755-10------10-10-12\----10--12-10-9-10-9------|
|-0-000---0--0000-------------8-8888--8--8-10\--/8--8--------------10~--|
|-----------------------------------------------------------------------|



First Guitar Lead:
                                         hammer on/pull off
|-17---17---17---17---17---17---17---17------12-17-12----------|
|-20-b-20-b-20-b-20-b-20-b-20-b-20-b-20-b~------------13-12----|
|-----------------------------------------------------------14-|
|--------------------------------------------------------------|
|--------------------------------------------------------------|
|--------------------------------------------------------------|



|-------------12---------ho/po-------------------------------------------|
|-13-12-13-15----15-13-12-13-12------------12----------------------------|
|-------------------------------14~----/14----14-13-12-------------------|
|------------------------------------------------------10-12-12b-10------|
|-------------------------------------------------------------------12\--|
|------------------------------------------------------------------------|




|----------------------------12----------------------------------------------|
|-------------------12-13-15----15-13-12-------------------------------------|
|-------------12-14----------------------14-12------------ho/po--------------|
|----10-12-14----------------------------------14-13-12\-10-12-10-12b-10-----|
|-/12--------------------------------------------------------------------12\-|
|----------------------------------------------------------------------------|




Melody 1 first part

|--------------------------------------------------------------------------------|
|--------------------------------------------------------------------------------|
|--------ho/po------------------ho/po-------------------------ho/po--------------|
|-------9-10-9----10-9---------9-10-9-----10/12-10-/12-14-12-10-12-10-9\-10-9-10-|
|-12-12--------12------12--7-7--------8-8----------------------------------------|
|--------------------------------------------------------------------------------|



Melody 1 second half at end of riff

|-------------------------------|
|-------------------------------|
|-------------------------------|
|-----------------TRILL~~~~~----|
|-/14-12-10-12-10-9-10-9-10-----|
|-------------------------------|


back to main riff
melody riff 1

Chorus melody riff (speed pick throughout)
|------------------------------------------------------------------------------------|
|------------------------------------------------------------------------------------|
|------------------------------------------------------------------------------------|
|---------99991010101012121212101010109999--------9999101010101212121210101010109999-|
|-12121212--------------------------------10101010-----------------------------------|
|------------------------------------------------------------------------------------|


(cont. speed picking)
|------------------------------------------------------------------------------------|
|------------------------------------------------------------------------------------|
|------------------------------------------------------------------------------------|
|------99999101010101012121212121010101099999----------99999--------9999101010109999-|
|-88888--------------------------------------1010101010-----10101010-----------------|
|------------------------------------------------------------------------------------|


back to main riff
melody 1 riff
chorus


bridge breakdown riff slower part 1 first part
|----------------------------------------------------------------|
|----------------------------------------------------------------|
|----------------------------------------------------------------|
|-2-2-----2-2-----ho/po-ho/po--2-2-----2-2-----------------------|
|-0-0-000-0-0-000-02353202320--0-0-000-0-0-32--3-3---------32----|
|----------------------------3---------------3-1-1-111-0-0---3---|



bridge breakdown riff second part at end of riff
|-----------------------------------------------|
|-----------------------------------------------|
|-----------------------------------------------|
|---------5-5-555-------------------------------|
|-3-3-----3-3-333-------------------------------|
|-1-1-111---------------------------------------|



next riff first part
|--------------------------------------------------------------------------------|
|--------------------------------------------------------------------------------|
|------------------------------------------------------------------ho/po---------|
|--------------10--9------------9-10--------------10--9-12--10--9--9-10-9--------|
|-0-0-0-320357---0--0-0-0-320357-----0-0-0-320357---0-----00--00-00--------------|
|--------------------------------------------------------------------------------|



second part fill at end of this riff

|----------------------------------------|
|----------------------------------------|
|------------ho/po-----------------------|
|-/12-10-9-10-9-10-9---------------------|
|-------------------10-------------------|
|----------------------------------------|




slow melodic next part one
|---------------------------------------------------|
|---------------------------------------------------|
|---------------------------------------------------|
|---10/12---12/14-14-14\12\10--2----2-----2-----222-|
|/8------10--------------------000000-00000-0000000-|
|---------------------------------------------------|



slow melodic part two at end of riff
|-----------------------------------|
|-----------------------------------|
|--------------ho/po----------------|
|----10/12--10-9-10-9---------------|
|-/8------10----------10------------|
|-----------------------------------|


Chord fill before fast part

|-----------------------------------|
|-----------------------------------|
|----------9------------------------|
|-12-10-12-7------------------------|
|-10-8--10--------------------------|
|-----------------------------------|



Fast part in middle
|--------------------------------------------------------------------------------|
|--------------------------------------------------------------------------------|
|---------------------------------------------------7-10-------------------------|
|--7-----------------------------7--------------6-9------------------------------|
|---------7------6--------------------------5-8----------------------------------|
|---555555-555555-555555-8-555555-555555-4-7-------------------------------------|



|--------------------------------------------------------------------------------|
|--------------------------------------------------------------------------------|
|--------------------------------a.h.--------------------------------------------|
|--7-----------------------------7~----------------------------------------------|
|---------7------6------------------9-10-9-7------------------------33333322222--|
|---555555-555555-555555-8-555555---7-8--7-5--1111111444444411111111-------------|


|---------------------------------------------|
|---------------------------------------------|
|---------------------------------------------|
|---------------------------------------------|
|--------------------------------2-3-5-a.h.---|
|-444444411111114444444411111111-0-1-3-4~-----|


fill at and off riff before abrupt stop
|--------------------------------------|
|--------------------------------------|
|--------------------------------------|
|---------3-6-3------------------------|
|-----2-5-------5-2--------------------|
|-1-4---------------4-1----------------|


next fast riff
|----------------------------------------------------------------------------------|
|----------------------------------------------------------------------------------|
|----------------------------------------------------------------------------------|
|----------------------------------------------------------------------------------|
|------------------77777-----------------------------------------------------------|
|-55555566666555555------555555666664444445555556666665555550000001111113333344444-|


|--------------------------------------------------------------------------|
|--------------------------------------------------------------------------|
|--------------------------------------------------------------------------|
|--------------------------------------------------------------------------|
|------------------77777----------------------------------------3-----6----|
|-55555566666555555------55555566666444444555555666666555555-111-4-444--7--|

 
 
Enforsaken
"Poison Me"
From the album "The Forever Endeavor"
track 8
Century Media Records
Music by Steve Stell and Joe DeGroot
Lyrics By Steven Sagala

2004 Magic Arts Publishing (ascap)

Tune to C# standard

Intro/main riff                     

|--------------------------------------------------------|
|--------------------------------------------------------|
|--------------------------------------------------------|
|---------------------------------------------------/7~--|
|---------3------5------5-3-2-3------3------5-------/8~--|
|-11111111-111111-111111-------111111-111111-111111------|


cont. heavy palm mute
|---------------------------|
|---------------------------|
|---------------------------|
|---------------------------|
|-2222-2-2-2-2222-2-2-2-----|
|-0000-0-0-0-0000-0-0-0-----|


|--------------------------------------------------------|
|--------------------------------------------------------|
|--------------------------------------------------------|
|---------------------------------------------------/7~--|
|---------3------5------5-3-2-3------3------5-------/8~--|
|-11111111-111111-111111-------111111-111111-111111------|


|---------------------------------------------------------------|
|---------------------------------------------------------------|
|---------------------------------------------------------------|
|-------------------------------------------9-7-----------------|
|-7-----------9-7-----------10-9----------9----10-9-10-9-7------|
|--000-7-9-10-----000-7-9-10----000-7-9-10-----------------10---|



harmonic sliding fill before chorus:
|-starting close to bridge pickup, moving down towards neck, ---|
|-slide right hand gently over string while pulling off notes---|
|-\\\\\\\\\\\\\\\-----------------------------------------------|
|-p/o-p/o-p/o-p/o-----------------------------------------------|
|-420-420-420-420-----------------------------------------------|
|---------------------------------------------------------------|


Chorus riff

|-----------------------------------------|
|-----------------------------------------|
|-----------------------------------------|
|-5---5----9--9--9\-4-5---5----9--9-10~---|
|-7---7---10-10-10\-5-7---7---10-10-12~---|
|--000-000--0--0-------000-000--0--0------|


chorus riff cont.
|--------------------------------------------------------------|
|--------------------------------------------------------------|
|--------------------------------------------------------------|
|-5---5----9--9--9\-4------------------------------------------|
|-7---7---10-10-10\-5------------------------------------------|
|--000-000--0--0------8888101010101008888888777777555555333333-|


back to main riff
return to chorus

Fast middle part: trem pick throughout
|-----------------------------------------------------------------|
|-----------------------------------------------------------------|
|-----------------------------------------------------------------|
|-----------------------------------------------------------------|
|-7777777779999999910101010101010-7777777777779999999991010101010-|
|-----------------------------------------------------------------|



|-----------------------------------------------------------------------|
|-----------------------------------------------------------------------|
|-----------------------------------------------------------------------|
|----------------------------------------------101010101099999910101010-|
|----------1010101010999999991010101010---------------------------------|
|-88888888-----------------------------88888888-------------------------|


|-----------------------------------------------------------------|
|-----------------------------------------------------------------|
|-----------------------------------------------------------------|
|-----------------------------------------------------------------|
|-7777777779999999910101010101010-7777777777779999999991010101010-|
|-----------------------------------------------------------------|



|-----------------------------------------------------------------|
|-----------------------------------------------------------------|
|-----------------------------------------------------------------|
|-999999977777777----------------------------------------7777777--|
|----------------101010101099999999------9999991010101010---------|
|----------------------------------888888-------------------------|



bridge riff
|----------------------------------------------|
|----------------------------------------------|
|----------------------------------------------|
|-9---10--1010-10-10--9---10-1010-10\-7--------|
|-7----6---9-9--9--9--7----6--9-9--9\-6--------|
|--0-0-----------------0-0---------------------|

cont.
|----------------------------------------------|
|----------------------------------------------|
|----------------------------------------------|
|-9---10--1010-10-10-----------9~-999-7--------|
|-7----6---9-9--9--9----7-9-10---------10-9-10-|
|--0-0---------------8~------------------------|


Clean section chords rough guide
Strum accordingly
|-0---------/----/-----\-----\--------/--------|
|-0--------------------------------------------|
|-0------0----0-----0-----0----0----0-----0----|
|-2------4----5-----9-----7----4----5-----7----|
|-2------5----7----10-----9----5----7-----9----|
|-0------7----8----12----10----7----8----10----|



next part: play above with distortion under lead guitar

back to bridge

lead guitar

chord fill at end of solo

|---------------------------|
|---------------------------|
|---------------------------|
|---------------------------|
|-2-2-2-2-------------------|
|-0-0-0-0-------------------|


back to main riff below

|--------------------------------------------------------|
|--------------------------------------------------------|
|--------------------------------------------------------|
|---------------------------------------------------/7~--|
|---------3------5------5-3-2-3------3------5-------/8~--|
|-11111111-111111-111111-------111111-111111-111111------|


cont. heavy palm mute
|---------------------------|
|---------------------------|
|---------------------------|
|---------------------------|
|-2222-2-2-2-2222-2-2-2-----|
|-0000-0-0-0-0000-0-0-0-----|


|--------------------------------------------------------|
|--------------------------------------------------------|
|--------------------------------------------------------|
|---------------------------------------------------/7~--|
|---------3------5------5-3-2-3------3------5-------/8~--|
|-11111111-111111-111111-------111111-111111-111111------|


|---------------------------------------------------------------|
|---------------------------------------------------------------|
|---------------------------------------------------------------|
|-------------------------------------------9-7-----------------|
|-7-----------9-7-----------10-9----------9----10-9-10-9-7------|
|--000-7-9-10-----000-7-9-10----000-7-9-10-----------------10---|



harmonic sliding fill before chorus

|-starting close to bridge pickup,moving down towards neck,-----|
|-slide right hand gently over string while pulling off notes---|
|-\\\\\\\\\\\\\\\-----------------------------------------------|
|-p/o-p/o-p/o-p/o-----------------------------------------------|
|-420-420-420-420-----------------------------------------------|
|---------------------------------------------------------------|


Chorus riff

|-----------------------------------------|
|-----------------------------------------|
|-----------------------------------------|
|-5---5----9--9--9\-4-5---5----9--9-10~---|
|-7---7---10-10-10\-5-7---7---10-10-12~---|
|--000-000--0--0-------000-000--0--0------|


chorus riff cont.
|--------------------------------------------------------------|
|--------------------------------------------------------------|
|--------------------------------------------------------------|
|-5---5----9--9--9\-4------------------------------------------|
|-7---7---10-10-10\-5------------------------------------------|
|--000-000--0--0------8888101010101008888888777777555555333333-|


lead guitar over end

ending chords

|---------------------------|
|---------------------------|
|---------------------------|
|---------------------------|
|-7-5-2---------------------|
|-5-3-0---------------------|